  0
SECTION
  2
HEADER
  9
$ACADVER
  1
AC1015
  9
$ACADMAINTVER
 70
     6
  9
$DWGCODEPAGE
  3
ANSI_1252
  9
$INSBASE
 10
0.0
 20
0.0
 30
0.0
  9
$EXTMIN
 10
1.000000000000000E+20
 20
1.000000000000000E+20
 30
1.000000000000000E+20
  9
$EXTMAX
 10
-1.000000000000000E+20
 20
-1.000000000000000E+20
 30
-1.000000000000000E+20
  9
$LIMMIN
 10
0.0
 20
0.0
  9
$LIMMAX
 10
12.0
 20
9.0
  9
$ORTHOMODE
 70
     0
  9
$REGENMODE
 70
     1
  9
$FILLMODE
 70
     1
  9
$QTEXTMODE
 70
     0
  9
$MIRRTEXT
 70
     1
  9
$LTSCALE
 40
1.0
  9
$ATTMODE
 70
     1
  9
$TEXTSIZE
 40
0.2
  9
$TRACEWID
 40
0.05
  9
$TEXTSTYLE
  7
Standard
  9
$CLAYER
  8
0
  9
$CELTYPE
  6
ByLayer
  9
$CECOLOR
 62
   256
  9
$CELTSCALE
 40
1.0
  9
$DISPSILH
 70
     0
  9
$DIMSCALE
 40
1.0
  9
$DIMASZ
 40
0.06
  9
$DIMEXO
 40
0.0625
  9
$DIMDLI
 40
0.38
  9
$DIMRND
 40
0.0
  9
$DIMDLE
 40
0.0
  9
$DIMEXE
 40
0.18
  9
$DIMTP
 40
0.0
  9
$DIMTM
 40
0.0
  9
$DIMTXT
 40
0.0821180555555555
  9
$DIMCEN
 40
0.09
  9
$DIMTSZ
 40
0.0
  9
$DIMTOL
 70
     0
  9
$DIMLIM
 70
     0
  9
$DIMTIH
 70
     1
  9
$DIMTOH
 70
     1
  9
$DIMSE1
 70
     0
  9
$DIMSE2
 70
     0
  9
$DIMTAD
 70
     0
  9
$DIMZIN
 70
     0
  9
$DIMBLK
  1

  9
$DIMASO
 70
     1
  9
$DIMSHO
 70
     1
  9
$DIMPOST
  1

  9
$DIMAPOST
  1

  9
$DIMALT
 70
     0
  9
$DIMALTD
 70
     2
  9
$DIMALTF
 40
25.4
  9
$DIMLFAC
 40
1.0
  9
$DIMTOFL
 70
     0
  9
$DIMTVP
 40
0.0
  9
$DIMTIX
 70
     0
  9
$DIMSOXD
 70
     0
  9
$DIMSAH
 70
     0
  9
$DIMBLK1
  1

  9
$DIMBLK2
  1

  9
$DIMSTYLE
  2
Standard
  9
$DIMCLRD
 70
     0
  9
$DIMCLRE
 70
     0
  9
$DIMCLRT
 70
     0
  9
$DIMTFAC
 40
1.0
  9
$DIMGAP
 40
0.09
  9
$DIMJUST
 70
     0
  9
$DIMSD1
 70
     0
  9
$DIMSD2
 70
     0
  9
$DIMTOLJ
 70
     1
  9
$DIMTZIN
 70
     0
  9
$DIMALTZ
 70
     0
  9
$DIMALTTZ
 70
     0
  9
$DIMUPT
 70
     0
  9
$DIMDEC
 70
     4
  9
$DIMTDEC
 70
     4
  9
$DIMALTU
 70
     2
  9
$DIMALTTD
 70
     2
  9
$DIMTXSTY
  7
Standard
  9
$DIMAUNIT
 70
     0
  9
$DIMADEC
 70
     0
  9
$DIMALTRND
 40
0.0
  9
$DIMAZIN
 70
     0
  9
$DIMDSEP
 70
    46
  9
$DIMATFIT
 70
     3
  9
$DIMFRAC
 70
     0
  9
$DIMLDRBLK
  1

  9
$DIMLUNIT
 70
     2
  9
$DIMLWD
 70
    -2
  9
$DIMLWE
 70
    -2
  9
$DIMTMOVE
 70
     0
  9
$LUNITS
 70
     2
  9
$LUPREC
 70
     4
  9
$SKETCHINC
 40
0.1
  9
$FILLETRAD
 40
0.5
  9
$AUNITS
 70
     0
  9
$AUPREC
 70
     0
  9
$MENU
  1
.
  9
$ELEVATION
 40
0.0
  9
$PELEVATION
 40
0.0
  9
$THICKNESS
 40
0.0
  9
$LIMCHECK
 70
     0
  9
$CHAMFERA
 40
0.5
  9
$CHAMFERB
 40
0.5
  9
$CHAMFERC
 40
1.0
  9
$CHAMFERD
 40
0.0
  9
$SKPOLY
 70
     0
  9
$TDCREATE
 40
2454893.471336516
  9
$TDUCREATE
 40
2454893.67966985
  9
$TDUPDATE
 40
2454893.471336528
  9
$TDUUPDATE
 40
2454893.679669861
  9
$TDINDWG
 40
0.0000000116
  9
$TDUSRTIMER
 40
0.0000000116
  9
$USRTIMER
 70
     1
  9
$ANGBASE
 50
0.0
  9
$ANGDIR
 70
     0
  9
$PDMODE
 70
     0
  9
$PDSIZE
 40
0.0
  9
$PLINEWID
 40
0.0
  9
$SPLFRAME
 70
     0
  9
$SPLINETYPE
 70
     6
  9
$SPLINESEGS
 70
     8
  9
$HANDSEED
  5
106
  9
$SURFTAB1
 70
     6
  9
$SURFTAB2
 70
     6
  9
$SURFTYPE
 70
     6
  9
$SURFU
 70
     6
  9
$SURFV
 70
     6
  9
$UCSBASE
  2

  9
$UCSNAME
  2

  9
$UCSORG
 10
0.0
 20
0.0
 30
0.0
  9
$UCSXDIR
 10
1.0
 20
0.0
 30
0.0
  9
$UCSYDIR
 10
0.0
 20
1.0
 30
0.0
  9
$UCSORTHOREF
  2

  9
$UCSORTHOVIEW
 70
     0
  9
$UCSORGTOP
 10
0.0
 20
0.0
 30
0.0
  9
$UCSORGBOTTOM
 10
0.0
 20
0.0
 30
0.0
  9
$UCSORGLEFT
 10
0.0
 20
0.0
 30
0.0
  9
$UCSORGRIGHT
 10
0.0
 20
0.0
 30
0.0
  9
$UCSORGFRONT
 10
0.0
 20
0.0
 30
0.0
  9
$UCSORGBACK
 10
0.0
 20
0.0
 30
0.0
  9
$PUCSBASE
  2

  9
$PUCSNAME
  2

  9
$PUCSORG
 10
0.0
 20
0.0
 30
0.0
  9
$PUCSXDIR
 10
1.0
 20
0.0
 30
0.0
  9
$PUCSYDIR
 10
0.0
 20
1.0
 30
0.0
  9
$PUCSORTHOREF
  2

  9
$PUCSORTHOVIEW
 70
     0
  9
$PUCSORGTOP
 10
0.0
 20
0.0
 30
0.0
  9
$PUCSORGBOTTOM
 10
0.0
 20
0.0
 30
0.0
  9
$PUCSORGLEFT
 10
0.0
 20
0.0
 30
0.0
  9
$PUCSORGRIGHT
 10
0.0
 20
0.0
 30
0.0
  9
$PUCSORGFRONT
 10
0.0
 20
0.0
 30
0.0
  9
$PUCSORGBACK
 10
0.0
 20
0.0
 30
0.0
  9
$USERI1
 70
     0
  9
$USERI2
 70
     0
  9
$USERI3
 70
     0
  9
$USERI4
 70
     0
  9
$USERI5
 70
     0
  9
$USERR1
 40
0.0
  9
$USERR2
 40
0.0
  9
$USERR3
 40
0.0
  9
$USERR4
 40
0.0
  9
$USERR5
 40
0.0
  9
$WORLDVIEW
 70
     1
  9
$SHADEDGE
 70
     3
  9
$SHADEDIF
 70
    70
  9
$TILEMODE
 70
     1
  9
$MAXACTVP
 70
    64
  9
$PINSBASE
 10
0.0
 20
0.0
 30
0.0
  9
$PLIMCHECK
 70
     0
  9
$PEXTMIN
 10
1.000000000000000E+20
 20
1.000000000000000E+20
 30
1.000000000000000E+20
  9
$PEXTMAX
 10
-1.000000000000000E+20
 20
-1.000000000000000E+20
 30
-1.000000000000000E+20
  9
$PLIMMIN
 10
0.0
 20
0.0
  9
$PLIMMAX
 10
12.0
 20
9.0
  9
$UNITMODE
 70
     0
  9
$VISRETAIN
 70
     1
  9
$PLINEGEN
 70
     0
  9
$PSLTSCALE
 70
     1
  9
$TREEDEPTH
 70
  3020
  9
$CMLSTYLE
  2
Standard
  9
$CMLJUST
 70
     0
  9
$CMLSCALE
 40
1.0
  9
$PROXYGRAPHICS
 70
     1
  9
$MEASUREMENT
 70
     0
  9
$CELWEIGHT
370
    -1
  9
$ENDCAPS
280
     0
  9
$JOINSTYLE
280
     0
  9
$LWDISPLAY
290
     0
  9
$INSUNITS
 70
     1
  9
$HYPERLINKBASE
  1

  9
$STYLESHEET
  1

  9
$XEDIT
290
     1
  9
$CEPSNTYPE
380
     0
  9
$PSTYLEMODE
290
     1
  9
$FINGERPRINTGUID
  2
{B29CB43B-222D-42AE-99F5-016C9E3F8F22}
  9
$VERSIONGUID
  2
{FAEB1C32-E019-11D5-929B-00C0DF256EC4}
  9
$EXTNAMES
290
     1
  9
$PSVPSCALE
 40
0.0
  9
$OLESTARTUP
290
     0
  0
ENDSEC
  0
SECTION
  2
CLASSES
  0
CLASS
  1
ACDBDICTIONARYWDFLT
  2
AcDbDictionaryWithDefault
  3
ObjectDBX Classes
 90
        0
280
     0
281
     0
  0
CLASS
  1
ACDBPLACEHOLDER
  2
AcDbPlaceHolder
  3
ObjectDBX Classes
 90
        0
280
     0
281
     0
  0
CLASS
  1
LAYOUT
  2
AcDbLayout
  3
ObjectDBX Classes
 90
        0
280
     0
281
     0
  0
ENDSEC
  0
SECTION
  2
TABLES
  0
TABLE
  2
VPORT
  5
8
330
0
100
AcDbSymbolTable
 70
     1
  0
VPORT
  5
29
330
8
100
AcDbSymbolTableRecord
100
AcDbViewportTableRecord
  2
*Active
 70
     0
 10
0.0
 20
0.0
 11
1.0
 21
1.0
 12
10.42990654205607
 22
4.5
 13
0.0
 23
0.0
 14
0.5
 24
0.5
 15
0.5
 25
0.5
 16
0.0
 26
0.0
 36
1.0
 17
0.0
 27
0.0
 37
0.0
 40
9.0
 41
1.972972972850329
 42
50.0
 43
0.0
 44
0.0
 50
0.0
 51
0.0
 71
     0
 72
   100
 73
     1
 74
     3
 75
     0
 76
     0
 77
     0
 78
     0
281
     0
 65
     1
110
0.0
120
0.0
130
0.0
111
1.0
121
0.0
131
0.0
112
0.0
122
1.0
132
0.0
 79
     0
146
0.0
  0
ENDTAB
  0
TABLE
  2
LTYPE
  5
5
330
0
100
AcDbSymbolTable
 70
     1
  0
LTYPE
  5
14
330
5
100
AcDbSymbolTableRecord
100
AcDbLinetypeTableRecord
  2
ByBlock
 70
     0
  3

 72
    65
 73
     0
 40
0.0
  0
LTYPE
  5
15
330
5
100
AcDbSymbolTableRecord
100
AcDbLinetypeTableRecord
  2
ByLayer
 70
     0
  3

 72
    65
 73
     0
 40
0.0
  0
LTYPE
  5
16
330
5
100
AcDbSymbolTableRecord
100
AcDbLinetypeTableRecord
  2
Continuous
 70
     0
  3
Solid line
 72
    65
 73
     0
 40
0.0
  0
ENDTAB
  0
TABLE
  2
LAYER
  5
2
330
0
100
AcDbSymbolTable
 70
     4
  0
LAYER
  5
10
330
2
100
AcDbSymbolTableRecord
100
AcDbLayerTableRecord
  2
0
 70
     0
 62
     7
  6
Continuous
370
    -3
390
F
  0
LAYER
  5
2A
330
2
100
AcDbSymbolTableRecord
100
AcDbLayerTableRecord
  2
1
 70
     0
 62
   178
  6
Continuous
370
     0
390
F
  0
LAYER
  5
5B
330
2
100
AcDbSymbolTableRecord
100
AcDbLayerTableRecord
  2
2
 70
     0
 62
   178
  6
Continuous
370
     0
390
F
  0
LAYER
  5
FA
330
2
100
AcDbSymbolTableRecord
100
AcDbLayerTableRecord
  2
CONTINUOUS
 70
     0
 62
   178
  6
Continuous
370
     0
390
F
  0
ENDTAB
  0
TABLE
  2
STYLE
  5
3
330
0
100
AcDbSymbolTable
 70
     1
  0
STYLE
  5
11
330
3
100
AcDbSymbolTableRecord
100
AcDbTextStyleTableRecord
  2
Standard
 70
     0
 40
0.125
 41
1.0
 50
0.0
 71
     0
 42
0.2
  3
txt
  4

1001
ACAD
1000
Arial
1071
        0
  0
ENDTAB
  0
TABLE
  2
VIEW
  5
6
330
0
100
AcDbSymbolTable
 70
     0
  0
ENDTAB
  0
TABLE
  2
UCS
  5
7
330
0
100
AcDbSymbolTable
 70
     0
  0
ENDTAB
  0
TABLE
  2
APPID
  5
9
330
0
100
AcDbSymbolTable
 70
     1
  0
APPID
  5
12
330
9
100
AcDbSymbolTableRecord
100
AcDbRegAppTableRecord
  2
ACAD
 70
     0
  0
ENDTAB
  0
TABLE
  2
DIMSTYLE
  5
A
330
0
100
AcDbSymbolTable
 70
     1
100
AcDbDimStyleTable
  0
DIMSTYLE
105
27
330
A
100
AcDbSymbolTableRecord
100
AcDbDimStyleTableRecord
  2
Standard
 70
     0
340
11
  0
ENDTAB
  0
TABLE
  2
BLOCK_RECORD
  5
1
330
0
100
AcDbSymbolTable
 70
     1
  0
BLOCK_RECORD
  5
1F
330
1
100
AcDbSymbolTableRecord
100
AcDbBlockTableRecord
  2
*Model_Space
340
22
  0
BLOCK_RECORD
  5
1B
330
1
100
AcDbSymbolTableRecord
100
AcDbBlockTableRecord
  2
*Paper_Space
340
1E
  0
BLOCK_RECORD
  5
23
330
1
100
AcDbSymbolTableRecord
100
AcDbBlockTableRecord
  2
*Paper_Space0
340
26
  0
ENDTAB
  0
ENDSEC
  0
SECTION
  2
BLOCKS
  0
BLOCK
  5
20
330
1F
100
AcDbEntity
  8
0
100
AcDbBlockBegin
  2
*Model_Space
 70
     0
 71
     0
 10
0.0
 20
0.0
 30
0.0
  3
*Model_Space
  1

  0
ENDBLK
  5
21
330
1F
100
AcDbEntity
  8
0
100
AcDbBlockEnd
  0
BLOCK
  5
1C
330
1B
100
AcDbEntity
 67
     1
  8
0
100
AcDbBlockBegin
  2
*Paper_Space
 70
     0
 71
     0
 10
0.0
 20
0.0
 30
0.0
  3
*Paper_Space
  1

  0
ENDBLK
  5
1D
330
1B
100
AcDbEntity
 67
     1
  8
0
100
AcDbBlockEnd
  0
BLOCK
  5
24
330
23
100
AcDbEntity
  8
0
100
AcDbBlockBegin
  2
*Paper_Space0
 70
     0
 71
     0
 10
0.0
 20
0.0
 30
0.0
  3
*Paper_Space0
  1

  0
ENDBLK
  5
25
330
23
100
AcDbEntity
  8
0
100
AcDbBlockEnd
  0
ENDSEC
  0
SECTION
  2
ENTITIES
  0
LINE
  5
2B
330
1F
100
AcDbEntity
  8
1
100
AcDbLine
 10
14.279151
 20
8.716841
 30
0.0
 11
14.279151
 21
4.242092
 31
0.0
  0
LINE
  5
2C
330
1F
100
AcDbEntity
  8
1
100
AcDbLine
 10
14.529108
 20
4.259
 30
0.0
 11
14.529108
 21
8.716841
 31
0.0
  0
LINE
  5
2D
330
1F
100
AcDbEntity
  8
1
100
AcDbLine
 10
15.609016
 20
6.556327
 30
0.0
 11
15.513247
 21
7.798645999999999
 31
0.0
  0
LINE
  5
2E
330
1F
100
AcDbEntity
  8
1
100
AcDbLine
 10
14.968938
 20
6.556327
 30
0.0
 11
15.064707
 21
7.798645999999999
 31
0.0
  0
ARC
  5
2F
330
1F
100
AcDbEntity
  8
1
100
AcDbCircle
 10
13.189339
 20
4.969239
 30
0.0
 40
0.4999140000000024
100
AcDbArc
 50
180.000005009
 51
265.0000016819998
  0
LINE
  5
30
330
1F
100
AcDbEntity
  8
1
100
AcDbLine
 10
12.689425
 20
7.989692999999999
 30
0.0
 11
12.689425
 21
4.969239
 31
0.0
  0
LINE
  5
31
330
1F
100
AcDbEntity
  8
1
100
AcDbLine
 10
14.279151
 20
4.372069
 30
0.0
 11
13.145769
 21
4.471228
 31
0.0
  0
LINE
  5
32
330
1F
100
AcDbEntity
  8
1
100
AcDbLine
 10
16.088839
 20
3.982397
 30
0.0
 11
16.088839
 21
5.230932
 31
0.0
  0
LINE
  5
33
330
1F
100
AcDbEntity
  8
1
100
AcDbLine
 10
14.279151
 20
4.242092
 30
0.0
 11
16.088839
 21
4.242092
 31
0.0
  0
ARC
  5
34
330
1F
100
AcDbEntity
  8
1
100
AcDbCircle
 10
14.840055
 20
4.132371
 30
0.0
 40
0.1499740000000009
100
AcDbArc
 50
180.0000050089998
 51
-89.99999931700042
  0
LINE
  5
35
330
1F
100
AcDbEntity
  8
1
100
AcDbLine
 10
14.69008
 20
4.132371
 30
0.0
 11
14.69008
 21
4.242092
 31
0.0
  0
LINE
  5
36
330
1F
100
AcDbEntity
  8
1
100
AcDbLine
 10
14.840055
 20
3.982397
 30
0.0
 11
16.438779
 21
3.982397
 31
0.0
  0
CIRCLE
  5
37
330
1F
100
AcDbEntity
  8
1
100
AcDbCircle
 10
15.288977
 20
6.479466
 30
0.0
 40
0.2500000000000018
  0
LINE
  5
38
330
1F
100
AcDbEntity
  8
1
100
AcDbLine
 10
15.609016
 20
6.402605
 30
0.0
 11
15.513247
 21
5.160285999999999
 31
0.0
  0
ARC
  5
39
330
1F
100
AcDbEntity
  8
1
100
AcDbCircle
 10
14.611975
 20
6.479466
 30
0.0
 40
0.9999999999999992
100
AcDbArc
 50
-4.408166751999914
 51
4.408163109189982
  0
LINE
  5
3A
330
1F
100
AcDbEntity
  8
1
100
AcDbLine
 10
14.968938
 20
6.402605
 30
0.0
 11
15.064707
 21
5.160285999999999
 31
0.0
  0
ARC
  5
3B
330
1F
100
AcDbEntity
  8
1
100
AcDbCircle
 10
15.96598
 20
6.479466
 30
0.0
 40
1.000000000000001
100
AcDbArc
 50
175.5918419
 51
184.408168118
  0
ARC
  5
3C
330
1F
100
AcDbEntity
  8
1
100
AcDbCircle
 10
15.288977
 20
6.479466
 30
0.0
 40
0.6248919999999998
100
AcDbArc
 50
-63.06990213599997
 51
63.06989849400011
  0
LINE
  5
3D
330
1F
100
AcDbEntity
  8
1
100
AcDbLine
 10
15.016938
 20
5.77995
 30
0.0
 11
14.529108
 21
5.672831
 31
0.0
  0
LINE
  5
3E
330
1F
100
AcDbEntity
  8
1
100
AcDbLine
 10
15.587325
 20
6.121218999999999
 30
0.0
 11
15.794159
 21
6.479466
 31
0.0
  0
LINE
  5
3F
330
1F
100
AcDbEntity
  8
1
100
AcDbLine
 10
15.794159
 20
6.479466
 30
0.0
 11
15.587325
 21
6.837713999999999
 31
0.0
  0
LINE
  5
40
330
1F
100
AcDbEntity
  8
1
100
AcDbLine
 10
14.99063
 20
6.837713999999999
 30
0.0
 11
14.783796
 21
6.479466
 31
0.0
  0
LINE
  5
41
330
1F
100
AcDbEntity
  8
1
100
AcDbLine
 10
14.783796
 20
6.479466
 30
0.0
 11
14.99063
 21
6.121218999999999
 31
0.0
  0
ARC
  5
42
330
1F
100
AcDbEntity
  8
1
100
AcDbCircle
 10
15.288977
 20
6.479466
 30
0.0
 40
0.437500000000001
100
AcDbArc
 50
-46.43279075199967
 51
46.43279052499986
  0
ARC
  5
43
330
1F
100
AcDbEntity
  8
1
100
AcDbCircle
 10
15.288977
 20
6.479466
 30
0.0
 40
0.437500000000001
100
AcDbArc
 50
133.5672042389999
 51
226.4327921190001
  0
LINE
  5
44
330
1F
100
AcDbEntity
  8
1
100
AcDbLine
 10
15.12453
 20
5.104897999999999
 30
0.0
 11
15.453425
 21
5.104897999999999
 31
0.0
  0
ARC
  5
45
330
1F
100
AcDbEntity
  8
1
100
AcDbCircle
 10
15.12453
 20
5.164898
 30
0.0
 40
0.0600000000000004
100
AcDbArc
 50
184.4081681180007
 51
-89.99999931700006
  0
ARC
  5
46
330
1F
100
AcDbEntity
  8
1
100
AcDbCircle
 10
15.453425
 20
5.164898
 30
0.0
 40
0.0600000000000005
100
AcDbArc
 50
-89.99999931700006
 51
-4.408166752000391
  0
LINE
  5
47
330
1F
100
AcDbEntity
  8
0
100
AcDbLine
 10
16.438779
 20
4.044897
 30
0.0
 11
16.438779
 21
6.659465999999999
 31
0.0
  0
LINE
  5
48
330
1F
100
AcDbEntity
  8
0
100
AcDbLine
 10
16.438779
 20
8.914036
 30
0.0
 11
16.438779
 21
6.299465999999999
 31
0.0
  0
ARC
  5
49
330
1F
100
AcDbEntity
  8
1
100
AcDbCircle
 10
9.364708
 20
6.068094999999999
 30
0.0
 40
0.1299589999999999
100
AcDbArc
 50
-15.36843470899987
 51
90.00000250449982
  0
LINE
  5
4A
330
1F
100
AcDbEntity
  8
1
100
AcDbLine
 10
8.614944
 20
6.198055
 30
0.0
 11
9.364708
 21
6.198055
 31
0.0
  0
LINE
  5
4B
330
1F
100
AcDbEntity
  8
1
100
AcDbLine
 10
7.915163
 20
6.292025
 30
0.0
 11
8.614944
 21
6.292025
 31
0.0
  0
ARC
  5
4C
330
1F
100
AcDbEntity
  8
1
100
AcDbCircle
 10
8.335032
 20
6.469931999999999
 30
0.0
 40
1.499528999999999
100
AcDbArc
 50
-20.553176666
 51
0.0
  0
LINE
  5
4D
330
1F
100
AcDbEntity
  8
1
100
AcDbLine
 10
8.614944
 20
6.198055
 30
0.0
 11
8.614944
 21
6.479466
 31
0.0
  0
LINE
  5
4E
330
1F
100
AcDbEntity
  8
1
100
AcDbLine
 10
8.614944
 20
6.760878
 30
0.0
 11
8.614944
 21
6.479466
 31
0.0
  0
LINE
  5
4F
330
1F
100
AcDbEntity
  8
1
100
AcDbLine
 10
8.614944
 20
6.666906999999999
 30
0.0
 11
7.915163
 21
6.666906999999999
 31
0.0
  0
ARC
  5
50
330
1F
100
AcDbEntity
  8
1
100
AcDbCircle
 10
8.335032
 20
6.488999999999999
 30
0.0
 40
1.499529000000001
100
AcDbArc
 50
0.0
 51
20.55317473149999
  0
ARC
  5
51
330
1F
100
AcDbEntity
  8
1
100
AcDbCircle
 10
9.274095
 20
5.134889
 30
0.0
 40
0.0299910000000008
100
AcDbArc
 50
164.6315739420004
 51
-89.99999931699872
  0
LINE
  5
52
330
1F
100
AcDbEntity
  8
1
100
AcDbLine
 10
9.274095
 20
5.104897999999999
 30
0.0
 11
9.376191999999998
 21
5.104897999999999
 31
0.0
  0
ARC
  5
53
330
1F
100
AcDbEntity
  8
1
100
AcDbCircle
 10
9.376191999999998
 20
5.174875999999999
 30
0.0
 40
0.0699779999999999
100
AcDbArc
 50
-89.99999931699914
 51
-20.55317666599956
  0
LINE
  5
54
330
1F
100
AcDbEntity
  8
1
100
AcDbLine
 10
9.490019999999998
 20
6.033652999999999
 30
0.0
 11
9.245176999999998
 21
5.142836999999999
 31
0.0
  0
LINE
  5
55
330
1F
100
AcDbEntity
  8
1
100
AcDbLine
 10
9.441715999999998
 20
5.150308
 30
0.0
 11
9.739110999999998
 21
5.943482999999999
 31
0.0
  0
LINE
  5
56
330
1F
100
AcDbEntity
  8
1
100
AcDbLine
 10
16.438779
 20
8.976535999999998
 30
0.0
 11
16.438779
 21
3.982397
 31
0.0
  0
LINE
  5
57
330
1F
100
AcDbEntity
  8
1
100
AcDbLine
 10
7.915163
 20
6.919328
 30
0.0
 11
7.915163
 21
6.039603999999999
 31
0.0
  0
LINE
  5
58
330
1F
100
AcDbEntity
  8
1
100
AcDbLine
 10
7.915163
 20
6.039603999999999
 30
0.0
 11
7.805197999999999
 21
6.039603999999999
 31
0.0
  0
LINE
  5
59
330
1F
100
AcDbEntity
  8
1
100
AcDbLine
 10
6.931789
 20
4.631633999999999
 30
0.0
 11
6.978058999999999
 21
4.339495
 31
0.0
  0
LINE
  5
5A
330
1F
100
AcDbEntity
  8
1
100
AcDbLine
 10
6.884388
 20
4.624126
 30
0.0
 11
6.930657999999999
 21
4.331987
 31
0.0
  0
LINE
  5
5C
330
1F
100
AcDbEntity
  8
2
100
AcDbLine
 10
7.805197999999999
 20
2.239
 30
0.0
 11
7.565197999999999
 21
2.279
 31
0.0
  0
LINE
  5
5D
330
1F
100
AcDbEntity
  8
2
100
AcDbLine
 10
7.565197999999999
 20
2.279
 30
0.0
 11
7.565197999999999
 21
2.198999999999999
 31
0.0
  0
LINE
  5
5E
330
1F
100
AcDbEntity
  8
2
100
AcDbLine
 10
7.565197999999999
 20
2.198999999999999
 30
0.0
 11
7.805197999999999
 21
2.239
 31
0.0
  0
LINE
  5
5F
330
1F
100
AcDbEntity
  8
2
100
AcDbLine
 10
5.308127999999999
 20
2.239
 30
0.0
 11
7.565197999999999
 21
2.239
 31
0.0
  0
LINE
  5
60
330
1F
100
AcDbEntity
  8
2
100
AcDbLine
 10
7.495561
 20
3.178999999999999
 30
0.0
 11
7.255561
 21
3.218999999999999
 31
0.0
  0
LINE
  5
61
330
1F
100
AcDbEntity
  8
2
100
AcDbLine
 10
7.255561
 20
3.218999999999999
 30
0.0
 11
7.255561
 21
3.139
 31
0.0
  0
LINE
  5
62
330
1F
100
AcDbEntity
  8
2
100
AcDbLine
 10
7.255561
 20
3.139
 30
0.0
 11
7.495561
 21
3.178999999999999
 31
0.0
  0
LINE
  5
63
330
1F
100
AcDbEntity
  8
2
100
AcDbLine
 10
6.401844999999999
 20
3.178999999999999
 30
0.0
 11
7.255561
 21
3.178999999999999
 31
0.0
  0
LINE
  5
64
330
1F
100
AcDbEntity
  8
2
100
AcDbLine
 10
7.805197999999999
 20
4.066
 30
0.0
 11
7.805197999999999
 21
2.119
 31
0.0
  0
LINE
  5
65
330
1F
100
AcDbEntity
  8
2
100
AcDbLine
 10
7.495561
 20
4.192033
 30
0.0
 11
7.495561
 21
3.059
 31
0.0
  0
LINE
  5
66
330
1F
100
AcDbEntity
  8
2
100
AcDbLine
 10
3.120696
 20
3.982397
 30
0.0
 11
7.495561
 21
3.982397
 31
0.0
  0
LINE
  5
67
330
1F
100
AcDbEntity
  8
2
100
AcDbLine
 10
6.840645
 20
4.242092
 30
0.0
 11
3.775612
 21
4.242092
 31
0.0
  0
CIRCLE
  5
68
330
1F
100
AcDbEntity
  8
2
100
AcDbCircle
 10
6.931223999999999
 20
4.481811
 30
0.0
 40
0.1498240000000006
  0
ARC
  5
69
330
1F
100
AcDbEntity
  8
2
100
AcDbCircle
 10
6.840645
 20
4.641623
 30
0.0
 40
0.3995309999999996
100
AcDbArc
 50
-89.9999993170001
 51
-45.00000831000011
  0
LINE
  5
6A
330
1F
100
AcDbEntity
  8
2
100
AcDbLine
 10
7.276901
 20
4.872543
 30
0.0
 11
6.437476999999999
 21
4.443901
 31
0.0
  0
LINE
  5
6B
330
1F
100
AcDbEntity
  8
2
100
AcDbLine
 10
7.688177999999999
 20
4.924133999999999
 30
0.0
 11
7.123156
 21
4.359112
 31
0.0
  0
CIRCLE
  5
6C
330
1F
100
AcDbEntity
  8
2
100
AcDbCircle
 10
7.495561
 20
4.292033
 30
0.0
 40
0.1403350000000003
  0
ARC
  5
6D
330
1F
100
AcDbEntity
  8
2
100
AcDbCircle
 10
7.495561
 20
4.292033
 30
0.0
 40
0.309637
100
AcDbArc
 50
-89.99999931700023
 51
0.0
  0
ARC
  5
6E
330
1F
100
AcDbEntity
  8
2
100
AcDbCircle
 10
7.405667
 20
5.206645
 30
0.0
 40
0.3995309999999994
100
AcDbArc
 50
-45.00000831000011
 51
0.0
  0
LINE
  5
6F
330
1F
100
AcDbEntity
  8
2
100
AcDbLine
 10
7.805197999999999
 20
8.666899
 30
0.0
 11
7.805197999999999
 21
4.292033
 31
0.0
  0
ARC
  5
70
330
1F
100
AcDbEntity
  8
2
100
AcDbCircle
 10
6.936217999999999
 20
5.539713999999999
 30
0.0
 40
0.7491209999999997
100
AcDbArc
 50
-62.94939027899992
 51
0.0
  0
LINE
  5
71
330
1F
100
AcDbEntity
  8
2
100
AcDbLine
 10
7.685338999999999
 20
7.419218
 30
0.0
 11
7.685338999999999
 21
5.539713999999999
 31
0.0
  0
LINE
  5
72
330
1F
100
AcDbEntity
  8
1
100
AcDbLine
 10
5.308127999999999
 20
3.0180397
 30
0.0
 11
5.308127999999999
 21
5.039297999999999
 31
0.0
  0
LINE
  5
73
330
1F
100
AcDbEntity
  8
2
100
AcDbLine
 10
5.308127999999999
 20
2.239
 30
0.0
 11
3.051059
 21
2.239
 31
0.0
  0
LINE
  5
74
330
1F
100
AcDbEntity
  8
2
100
AcDbLine
 10
5.308127999999999
 20
3.178999999999999
 30
0.0
 11
5.548127999999999
 21
3.139
 31
0.0
  0
LINE
  5
75
330
1F
100
AcDbEntity
  8
2
100
AcDbLine
 10
5.548127999999999
 20
3.139
 30
0.0
 11
5.548127999999999
 21
3.218999999999999
 31
0.0
  0
LINE
  5
76
330
1F
100
AcDbEntity
  8
2
100
AcDbLine
 10
5.548127999999999
 20
3.218999999999999
 30
0.0
 11
5.308127999999999
 21
3.178999999999999
 31
0.0
  0
LINE
  5
77
330
1F
100
AcDbEntity
  8
2
100
AcDbLine
 10
6.401844999999999
 20
3.178999999999999
 30
0.0
 11
5.548127999999999
 21
3.178999999999999
 31
0.0
  0
LINE
  5
78
330
1F
100
AcDbEntity
  8
2
100
AcDbLine
 10
5.308127999999999
 20
3.178999999999999
 30
0.0
 11
5.068127999999999
 21
3.218999999999999
 31
0.0
  0
LINE
  5
79
330
1F
100
AcDbEntity
  8
2
100
AcDbLine
 10
5.068127999999999
 20
3.139
 30
0.0
 11
5.308127999999999
 21
3.178999999999999
 31
0.0
  0
LINE
  5
7A
330
1F
100
AcDbEntity
  8
2
100
AcDbLine
 10
5.947378
 20
4.242092
 30
0.0
 11
5.947378
 21
3.982397
 31
0.0
  0
LINE
  5
7B
330
1F
100
AcDbEntity
  8
2
100
AcDbLine
 10
4.519463
 20
4.361951
 30
0.0
 11
6.096793999999999
 21
4.361951
 31
0.0
  0
ARC
  5
7C
330
1F
100
AcDbEntity
  8
2
100
AcDbCircle
 10
6.096793999999999
 20
5.111072
 30
0.0
 40
0.7491209999999997
100
AcDbArc
 50
-89.99999931699996
 51
-62.94939027899994
  0
LINE
  5
7D
330
1F
100
AcDbEntity
  8
2
100
AcDbLine
 10
5.068127999999999
 20
3.218999999999999
 30
0.0
 11
5.068127999999999
 21
3.139
 31
0.0
  0
LINE
  5
7E
330
1F
100
AcDbEntity
  8
2
100
AcDbLine
 10
4.214411999999999
 20
3.178999999999999
 30
0.0
 11
5.068127999999999
 21
3.178999999999999
 31
0.0
  0
LINE
  5
7F
330
1F
100
AcDbEntity
  8
0
100
AcDbLine
 10
16.438779
 20
3.919897
 30
0.0
 11
16.438779
 21
3.11101038
 31
0.0
  0
LINE
  5
80
330
1F
100
AcDbEntity
  8
0
100
AcDbLine
 10
15.288977
 20
6.416966
 30
0.0
 11
15.288977
 21
3.11101038
 31
0.0
  0
LINE
  5
81
330
1F
100
AcDbEntity
  8
0
100
AcDbLine
 10
16.438779
 20
3.29101038
 30
0.0
 11
16.618779
 21
3.26101038
 31
0.0
  0
LINE
  5
82
330
1F
100
AcDbEntity
  8
0
100
AcDbLine
 10
16.618779
 20
3.32101038
 30
0.0
 11
16.438779
 21
3.29101038
 31
0.0
  0
LINE
  5
83
330
1F
100
AcDbEntity
  8
0
100
AcDbLine
 10
16.618779
 20
3.26101038
 30
0.0
 11
16.618779
 21
3.32101038
 31
0.0
  0
LINE
  5
84
330
1F
100
AcDbEntity
  8
0
100
AcDbLine
 10
16.798779
 20
3.29101038
 30
0.0
 11
16.618779
 21
3.29101038
 31
0.0
  0
LINE
  5
85
330
1F
100
AcDbEntity
  8
0
100
AcDbLine
 10
15.288977
 20
3.29101038
 30
0.0
 11
15.108977
 21
3.32101038
 31
0.0
  0
LINE
  5
86
330
1F
100
AcDbEntity
  8
0
100
AcDbLine
 10
15.108977
 20
3.26101038
 30
0.0
 11
15.288977
 21
3.29101038
 31
0.0
  0
LINE
  5
87
330
1F
100
AcDbEntity
  8
0
100
AcDbLine
 10
15.108977
 20
3.32101038
 30
0.0
 11
15.108977
 21
3.26101038
 31
0.0
  0
LINE
  5
88
330
1F
100
AcDbEntity
  8
0
100
AcDbLine
 10
14.928977
 20
3.29101038
 30
0.0
 11
15.108977
 21
3.29101038
 31
0.0
  0
LINE
  5
89
330
1F
100
AcDbEntity
  8
0
100
AcDbLine
 10
16.438779
 20
3.04851038
 30
0.0
 11
16.438779
 21
2.28997333
 31
0.0
  0
LINE
  5
8A
330
1F
100
AcDbEntity
  8
0
100
AcDbLine
 10
12.689425
 20
4.906739
 30
0.0
 11
12.689425
 21
2.28997333
 31
0.0
  0
LINE
  5
8B
330
1F
100
AcDbEntity
  8
0
100
AcDbLine
 10
16.438779
 20
2.46997333
 30
0.0
 11
16.258779
 21
2.49997333
 31
0.0
  0
LINE
  5
8C
330
1F
100
AcDbEntity
  8
0
100
AcDbLine
 10
16.258779
 20
2.43997333
 30
0.0
 11
16.438779
 21
2.46997333
 31
0.0
  0
LINE
  5
8D
330
1F
100
AcDbEntity
  8
0
100
AcDbLine
 10
16.258779
 20
2.49997333
 30
0.0
 11
16.258779
 21
2.43997333
 31
0.0
  0
LINE
  5
8E
330
1F
100
AcDbEntity
  8
0
100
AcDbLine
 10
12.689425
 20
2.46997333
 30
0.0
 11
12.869425
 21
2.43997333
 31
0.0
  0
LINE
  5
8F
330
1F
100
AcDbEntity
  8
0
100
AcDbLine
 10
12.869425
 20
2.49997333
 30
0.0
 11
12.689425
 21
2.46997333
 31
0.0
  0
LINE
  5
90
330
1F
100
AcDbEntity
  8
0
100
AcDbLine
 10
12.869425
 20
2.43997333
 30
0.0
 11
12.869425
 21
2.49997333
 31
0.0
  0
LINE
  5
91
330
1F
100
AcDbEntity
  8
0
100
AcDbLine
 10
14.054102
 20
2.46997333
 30
0.0
 11
12.869425
 21
2.46997333
 31
0.0
  0
LINE
  5
92
330
1F
100
AcDbEntity
  8
0
100
AcDbLine
 10
14.9811754
 20
2.46997333
 30
0.0
 11
16.258779
 21
2.46997333
 31
0.0
  0
LINE
  5
93
330
1F
100
AcDbEntity
  8
1
100
AcDbLine
 10
15.016938
 20
7.178982
 30
0.0
 11
14.529108
 21
7.286102
 31
0.0
  0
LINE
  5
94
330
1F
100
AcDbEntity
  8
1
100
AcDbLine
 10
8.614944
 20
6.760878
 30
0.0
 11
9.364708
 21
6.760878
 31
0.0
  0
ARC
  5
95
330
1F
100
AcDbEntity
  8
1
100
AcDbCircle
 10
9.364708
 20
6.890836999999999
 30
0.0
 40
0.1299589999999995
100
AcDbArc
 50
-89.99999931699995
 51
15.36842765139978
  0
LINE
  5
96
330
1F
100
AcDbEntity
  8
1
100
AcDbLine
 10
9.490019999999998
 20
6.925279
 30
0.0
 11
9.245176999999998
 21
7.816095999999999
 31
0.0
  0
LINE
  5
97
330
1F
100
AcDbEntity
  8
1
100
AcDbLine
 10
9.441715999999998
 20
7.808623999999999
 30
0.0
 11
9.739110999999998
 21
7.01545
 31
0.0
  0
ARC
  5
98
330
1F
100
AcDbEntity
  8
1
100
AcDbCircle
 10
13.189339
 20
7.989692999999999
 30
0.0
 40
0.4999140000000007
100
AcDbArc
 50
95.00000150530002
 51
180.000005009
  0
LINE
  5
99
330
1F
100
AcDbEntity
  8
1
100
AcDbLine
 10
16.088839
 20
8.976535999999998
 30
0.0
 11
16.088839
 21
7.727999999999999
 31
0.0
  0
LINE
  5
9A
330
1F
100
AcDbEntity
  8
1
100
AcDbLine
 10
15.453425
 20
7.854034
 30
0.0
 11
15.12453
 21
7.854034
 31
0.0
  0
ARC
  5
9B
330
1F
100
AcDbEntity
  8
1
100
AcDbCircle
 10
15.453425
 20
7.794033999999999
 30
0.0
 40
0.0600000000000005
100
AcDbArc
 50
4.408163109191234
 51
90.00000250449936
  0
ARC
  5
9C
330
1F
100
AcDbEntity
  8
1
100
AcDbCircle
 10
15.12453
 20
7.794033999999999
 30
0.0
 40
0.0600000000000006
100
AcDbArc
 50
90.00000250449936
 51
175.5918418999993
  0
LINE
  5
9D
330
1F
100
AcDbEntity
  8
1
100
AcDbLine
 10
7.915163
 20
6.919328
 30
0.0
 11
7.805197999999999
 21
6.919328
 31
0.0
  0
ARC
  5
9E
330
1F
100
AcDbEntity
  8
1
100
AcDbCircle
 10
9.274095
 20
7.824044
 30
0.0
 40
0.029990999999999
100
AcDbArc
 50
90.00000250450096
 51
195.3684224149994
  0
LINE
  5
9F
330
1F
100
AcDbEntity
  8
1
100
AcDbLine
 10
9.274095
 20
7.854034
 30
0.0
 11
9.376191999999998
 21
7.854034
 31
0.0
  0
ARC
  5
A0
330
1F
100
AcDbEntity
  8
1
100
AcDbCircle
 10
9.376191999999998
 20
7.784055999999999
 30
0.0
 40
0.0699780000000006
100
AcDbArc
 50
20.55317473149945
 51
90.00000250449796
  0
LINE
  5
A1
330
1F
100
AcDbEntity
  8
2
100
AcDbLine
 10
6.437476999999999
 20
8.515031
 30
0.0
 11
7.276901
 21
8.086389
 31
0.0
  0
ARC
  5
A2
330
1F
100
AcDbEntity
  8
2
100
AcDbCircle
 10
7.405667
 20
7.752287
 30
0.0
 40
0.3995309999999987
100
AcDbArc
 50
0.0
 51
45.00000125220001
  0
LINE
  5
A3
330
1F
100
AcDbEntity
  8
2
100
AcDbLine
 10
7.123156
 20
8.599821
 30
0.0
 11
7.688177999999999
 21
8.034798
 31
0.0
  0
ARC
  5
A4
330
1F
100
AcDbEntity
  8
2
100
AcDbCircle
 10
6.936217999999999
 20
7.419218
 30
0.0
 40
0.7491209999999997
100
AcDbArc
 50
0.0
 51
62.94940029669993
  0
LINE
  5
A5
330
1F
100
AcDbEntity
  8
1
100
AcDbLine
 10
14.279151
 20
8.586863
 30
0.0
 11
13.145769
 21
8.487705
 31
0.0
  0
LINE
  5
A6
330
1F
100
AcDbEntity
  8
1
100
AcDbLine
 10
14.279151
 20
8.716841
 30
0.0
 11
16.088839
 21
8.716841
 31
0.0
  0
ARC
  5
A7
330
1F
100
AcDbEntity
  8
1
100
AcDbCircle
 10
14.840055
 20
8.826562
 30
0.0
 40
0.1499739999999986
100
AcDbArc
 50
90.0000025044999
 51
180.0000050089998
  0
LINE
  5
A8
330
1F
100
AcDbEntity
  8
1
100
AcDbLine
 10
14.69008
 20
8.826562
 30
0.0
 11
14.69008
 21
8.716841
 31
0.0
  0
LINE
  5
A9
330
1F
100
AcDbEntity
  8
1
100
AcDbLine
 10
5.308127999999999
 20
7.934631999999999
 30
0.0
 11
5.308127999999999
 21
9.226076
 31
0.0
  0
LINE
  5
AA
330
1F
100
AcDbEntity
  8
1
100
AcDbLine
 10
6.990284999999999
 20
8.614814
 30
0.0
 11
6.918729
 21
8.32782
 31
0.0
  0
LINE
  5
AB
330
1F
100
AcDbEntity
  8
1
100
AcDbLine
 10
6.943717999999999
 20
8.626423999999998
 30
0.0
 11
6.872162999999999
 21
8.33943
 31
0.0
  0
LINE
  5
AC
330
1F
100
AcDbEntity
  8
2
100
AcDbLine
 10
4.519463
 20
8.596981
 30
0.0
 11
6.096793999999999
 21
8.596981
 31
0.0
  0
LINE
  5
AD
330
1F
100
AcDbEntity
  8
2
100
AcDbLine
 10
5.947378
 20
8.976535999999998
 30
0.0
 11
5.947378
 21
8.716841
 31
0.0
  0
ARC
  5
AE
330
1F
100
AcDbEntity
  8
2
100
AcDbCircle
 10
6.096793999999999
 20
7.847859999999999
 30
0.0
 40
0.7491210000000007
100
AcDbArc
 50
62.94940029669996
 51
90.00000250449999
  0
LINE
  5
AF
330
1F
100
AcDbEntity
  8
2
100
AcDbLine
 10
3.775612
 20
8.716841
 30
0.0
 11
6.840645
 21
8.716841
 31
0.0
  0
ARC
  5
B0
330
1F
100
AcDbEntity
  8
2
100
AcDbCircle
 10
7.495561
 20
8.666899
 30
0.0
 40
0.3096369999999995
100
AcDbArc
 50
0.0
 51
90.00000250450009
  0
CIRCLE
  5
B1
330
1F
100
AcDbEntity
  8
2
100
AcDbCircle
 10
7.495561
 20
8.666899
 30
0.0
 40
0.1403350000000003
  0
ARC
  5
B2
330
1F
100
AcDbEntity
  8
2
100
AcDbCircle
 10
6.840645
 20
8.317309
 30
0.0
 40
0.3995310000000003
100
AcDbArc
 50
45.00000125220001
 51
90.00000250450015
  0
CIRCLE
  5
B3
330
1F
100
AcDbEntity
  8
2
100
AcDbCircle
 10
6.931223999999999
 20
8.477122
 30
0.0
 40
0.1498240000000006
  0
LINE
  5
B4
330
1F
100
AcDbEntity
  8
1
100
AcDbLine
 10
14.840055
 20
8.976535999999998
 30
0.0
 11
16.438779
 21
8.976535999999998
 31
0.0
  0
LINE
  5
B5
330
1F
100
AcDbEntity
  8
1
100
AcDbLine
 10
3.297118
 20
8.916144
 30
0.0
 11
3.890485
 21
9.75444
 31
0.0
  0
LINE
  5
B6
330
1F
100
AcDbEntity
  8
1
100
AcDbLine
 10
3.201773
 20
8.781443999999999
 30
0.0
 11
3.277478
 21
8.930045
 31
0.0
  0
LINE
  5
B7
330
1F
100
AcDbEntity
  8
1
100
AcDbLine
 10
3.201773
 20
8.781443999999999
 30
0.0
 11
3.316757
 21
8.902243
 31
0.0
  0
LINE
  5
B8
330
1F
100
AcDbEntity
  8
1
100
AcDbLine
 10
3.277478
 20
8.930045
 30
0.0
 11
3.316757
 21
8.902243
 31
0.0
  0
LINE
  5
B9
330
1F
100
AcDbEntity
  8
1
100
AcDbLine
 10
3.824703
 20
4.536029999999999
 30
0.0
 11
3.535386
 21
4.474534
 31
0.0
  0
LINE
  5
BA
330
1F
100
AcDbEntity
  8
1
100
AcDbLine
 10
3.834681
 20
4.489087
 30
0.0
 11
3.545364
 21
4.427591
 31
0.0
  0
LINE
  5
BB
330
1F
100
AcDbEntity
  8
1
100
AcDbLine
 10
3.553721
 20
8.404981
 30
0.0
 11
3.786798999999999
 21
8.587080999999998
 31
0.0
  0
LINE
  5
BC
330
1F
100
AcDbEntity
  8
1
100
AcDbLine
 10
3.583267999999999
 20
8.367163
 30
0.0
 11
3.816345999999999
 21
8.549262999999998
 31
0.0
  0
LINE
  5
BD
330
1F
100
AcDbEntity
  8
2
100
AcDbLine
 10
3.120696
 20
3.178999999999999
 30
0.0
 11
3.360695999999999
 21
3.139
 31
0.0
  0
LINE
  5
BE
330
1F
100
AcDbEntity
  8
2
100
AcDbLine
 10
3.360695999999999
 20
3.139
 30
0.0
 11
3.360695999999999
 21
3.218999999999999
 31
0.0
  0
LINE
  5
BF
330
1F
100
AcDbEntity
  8
2
100
AcDbLine
 10
3.360695999999999
 20
3.218999999999999
 30
0.0
 11
3.120696
 21
3.178999999999999
 31
0.0
  0
LINE
  5
C0
330
1F
100
AcDbEntity
  8
2
100
AcDbLine
 10
4.214411999999999
 20
3.178999999999999
 30
0.0
 11
3.360695999999999
 21
3.178999999999999
 31
0.0
  0
LINE
  5
C1
330
1F
100
AcDbEntity
  8
2
100
AcDbLine
 10
7.495561
 20
8.916794
 30
0.0
 11
7.495561
 21
10.025992
 31
0.0
  0
LINE
  5
C2
330
1F
100
AcDbEntity
  8
2
100
AcDbLine
 10
4.668879
 20
3.982397
 30
0.0
 11
4.668879
 21
4.242092
 31
0.0
  0
CIRCLE
  5
C3
330
1F
100
AcDbEntity
  8
2
100
AcDbCircle
 10
3.685033
 20
4.481811
 30
0.0
 40
0.1498239999999997
  0
ARC
  5
C4
330
1F
100
AcDbEntity
  8
2
100
AcDbCircle
 10
3.775612
 20
4.641623
 30
0.0
 40
0.399531
100
AcDbArc
 50
224.999996016
 51
-89.9999993170001
  0
CIRCLE
  5
C5
330
1F
100
AcDbEntity
  8
2
100
AcDbCircle
 10
3.120696
 20
4.292033
 30
0.0
 40
0.1403350000000003
  0
LINE
  5
C6
330
1F
100
AcDbEntity
  8
2
100
AcDbLine
 10
4.17878
 20
4.443901
 30
0.0
 11
3.339356
 21
4.872543
 31
0.0
  0
LINE
  5
C7
330
1F
100
AcDbEntity
  8
2
100
AcDbLine
 10
3.493101
 20
4.359112
 30
0.0
 11
2.928078999999999
 21
4.924133999999999
 31
0.0
  0
ARC
  5
C8
330
1F
100
AcDbEntity
  8
2
100
AcDbCircle
 10
4.519463
 20
5.111072
 30
0.0
 40
0.7491210000000006
100
AcDbArc
 50
242.949391645
 51
-89.99999931700003
  0
ARC
  5
C9
330
1F
100
AcDbEntity
  8
2
100
AcDbCircle
 10
3.680038999999999
 20
5.539713999999999
 30
0.0
 40
0.7491209999999999
100
AcDbArc
 50
180.0000050089999
 51
242.949391645
  0
LINE
  5
CA
330
1F
100
AcDbEntity
  8
2
100
AcDbLine
 10
4.668879
 20
8.716841
 30
0.0
 11
4.668879
 21
8.976535999999998
 31
0.0
  0
LINE
  5
CB
330
1F
100
AcDbEntity
  8
2
100
AcDbLine
 10
7.495561
 20
8.976535999999998
 30
0.0
 11
3.120696
 21
8.976535999999998
 31
0.0
  0
ARC
  5
CC
330
1F
100
AcDbEntity
  8
2
100
AcDbCircle
 10
4.519463
 20
7.847859999999999
 30
0.0
 40
0.7491210000000013
100
AcDbArc
 50
90.00000250449999
 51
117.050591052
  0
LINE
  5
CD
330
1F
100
AcDbEntity
  8
2
100
AcDbLine
 10
3.339356
 20
8.086389
 30
0.0
 11
4.17878
 21
8.515031
 31
0.0
  0
CIRCLE
  5
CE
330
1F
100
AcDbEntity
  8
2
100
AcDbCircle
 10
3.120696
 20
8.666899
 30
0.0
 40
0.1403350000000003
  0
ARC
  5
CF
330
1F
100
AcDbEntity
  8
2
100
AcDbCircle
 10
3.775612
 20
8.317309
 30
0.0
 40
0.399531
100
AcDbArc
 50
90.00000250450002
 51
135.0000003420002
  0
CIRCLE
  5
D0
330
1F
100
AcDbEntity
  8
2
100
AcDbCircle
 10
3.685033
 20
8.477122
 30
0.0
 40
0.1498239999999997
  0
LINE
  5
D1
330
1F
100
AcDbEntity
  8
2
100
AcDbLine
 10
2.928078999999999
 20
8.034798
 30
0.0
 11
3.493101
 21
8.599821
 31
0.0
  0
ARC
  5
D2
330
1F
100
AcDbEntity
  8
2
100
AcDbCircle
 10
3.680038999999999
 20
7.419218
 30
0.0
 40
0.7491209999999999
100
AcDbArc
 50
117.050591052
 51
180.000005009
  0
CIRCLE
  5
D3
330
1F
100
AcDbEntity
  8
0
100
AcDbCircle
 10
1.436491
 20
6.479466
 30
0.0
 40
0.3439999999999999
  0
ARC
  5
D4
330
1F
100
AcDbEntity
  8
0
100
AcDbCircle
 10
2.04671906
 20
7.98532448
 30
0.0
 40
1.0
100
AcDbArc
 50
247.940429438
 51
-84.04257171900005
  0
ARC
  5
D5
330
1F
100
AcDbEntity
  8
0
100
AcDbCircle
 10
2.046719050942034
 20
4.973607625887569
 30
0.0
 40
0.9999999999999892
100
AcDbArc
 50
84.0425680763998
 51
112.0595600900001
  0
CIRCLE
  5
D6
330
1F
100
AcDbEntity
  8
1
100
AcDbCircle
 10
2.17126
 20
6.791868
 30
0.0
 40
0.0699779999999999
  0
CIRCLE
  5
D7
330
1F
100
AcDbEntity
  8
1
100
AcDbCircle
 10
2.17126
 20
6.167064
 30
0.0
 40
0.1549509999999996
  0
LINE
  5
D8
330
1F
100
AcDbEntity
  8
1
100
AcDbLine
 10
2.037129
 20
6.089483999999999
 30
0.0
 11
2.24884
 21
6.301196
 31
0.0
  0
LINE
  5
D9
330
1F
100
AcDbEntity
  8
1
100
AcDbLine
 10
2.093679
 20
6.032933
 30
0.0
 11
2.305391
 21
6.244644999999999
 31
0.0
  0
LINE
  5
DA
330
1F
100
AcDbEntity
  8
1
100
AcDbLine
 10
2.701093
 20
6.666906999999999
 30
0.0
 11
2.371197
 21
6.666906999999999
 31
0.0
  0
LINE
  5
DB
330
1F
100
AcDbEntity
  8
1
100
AcDbLine
 10
2.371197
 20
6.791868
 30
0.0
 11
2.371197
 21
6.167064
 31
0.0
  0
LINE
  5
DC
330
1F
100
AcDbEntity
  8
1
100
AcDbLine
 10
2.811059
 20
6.919328
 30
0.0
 11
2.701093
 21
6.919328
 31
0.0
  0
LINE
  5
DD
330
1F
100
AcDbEntity
  8
1
100
AcDbLine
 10
2.701093
 20
6.919328
 30
0.0
 11
2.701093
 21
6.039603999999999
 31
0.0
  0
LINE
  5
DE
330
1F
100
AcDbEntity
  8
1
100
AcDbLine
 10
2.701093
 20
6.292025
 30
0.0
 11
2.371197
 21
6.292025
 31
0.0
  0
LINE
  5
DF
330
1F
100
AcDbEntity
  8
1
100
AcDbLine
 10
2.811059
 20
6.039603999999999
 30
0.0
 11
2.701093
 21
6.039603999999999
 31
0.0
  0
LINE
  5
E0
330
1F
100
AcDbEntity
  8
1
100
AcDbLine
 10
5.821811
 20
9.846203
 30
0.0
 11
4.794445999999999
 21
9.846203
 31
0.0
  0
LINE
  5
E1
330
1F
100
AcDbEntity
  8
1
100
AcDbLine
 10
4.004099
 20
9.91495
 30
0.0
 11
4.666809999999999
 21
10.851213
 31
0.0
  0
ARC
  5
E2
330
1F
100
AcDbEntity
  8
1
100
AcDbCircle
 10
2.17126
 20
6.791868
 30
0.0
 40
0.1999369999999998
100
AcDbArc
 50
0.0
 51
95.95743010229997
  0
ARC
  5
E3
330
1F
100
AcDbEntity
  8
1
100
AcDbCircle
 10
2.17126
 20
6.167064
 30
0.0
 40
0.1999370000000011
100
AcDbArc
 50
264.042573085
 51
0.0
  0
ARC
  5
E4
330
1F
100
AcDbEntity
  8
1
100
AcDbCircle
 10
1.436491
 20
6.479466
 30
0.0
 40
0.6248039999999998
100
AcDbArc
 50
67.94043808929999
 51
-67.94042807099999
  0
LINE
  5
E5
330
1F
100
AcDbEntity
  8
2
100
AcDbLine
 10
2.811059
 20
2.239
 30
0.0
 11
3.051059
 21
2.198999999999999
 31
0.0
  0
LINE
  5
E6
330
1F
100
AcDbEntity
  8
2
100
AcDbLine
 10
3.051059
 20
2.198999999999999
 30
0.0
 11
3.051059
 21
2.279
 31
0.0
  0
LINE
  5
E7
330
1F
100
AcDbEntity
  8
2
100
AcDbLine
 10
3.051059
 20
2.279
 30
0.0
 11
2.811059
 21
2.239
 31
0.0
  0
LINE
  5
E8
330
1F
100
AcDbEntity
  8
2
100
AcDbLine
 10
2.811059
 20
4.192033
 30
0.0
 11
2.811059
 21
2.119
 31
0.0
  0
LINE
  5
E9
330
1F
100
AcDbEntity
  8
2
100
AcDbLine
 10
3.120696
 20
9.846203
 30
0.0
 11
3.300485
 21
9.816238
 31
0.0
  0
LINE
  5
EA
330
1F
100
AcDbEntity
  8
2
100
AcDbLine
 10
3.300485
 20
9.816238
 30
0.0
 11
3.300485
 21
9.876168
 31
0.0
  0
LINE
  5
EB
330
1F
100
AcDbEntity
  8
2
100
AcDbLine
 10
3.300485
 20
9.876168
 30
0.0
 11
3.120696
 21
9.846203
 31
0.0
  0
LINE
  5
EC
330
1F
100
AcDbEntity
  8
2
100
AcDbLine
 10
4.794445999999999
 20
9.846203
 30
0.0
 11
3.300485
 21
9.846203
 31
0.0
  0
LINE
  5
ED
330
1F
100
AcDbEntity
  8
2
100
AcDbLine
 10
7.495561
 20
9.846203
 30
0.0
 11
7.315772
 21
9.876168
 31
0.0
  0
LINE
  5
EE
330
1F
100
AcDbEntity
  8
2
100
AcDbLine
 10
7.315772
 20
9.876168
 30
0.0
 11
7.315772
 21
9.816238
 31
0.0
  0
LINE
  5
EF
330
1F
100
AcDbEntity
  8
2
100
AcDbLine
 10
7.315772
 20
9.816238
 30
0.0
 11
7.495561
 21
9.846203
 31
0.0
  0
LINE
  5
F0
330
1F
100
AcDbEntity
  8
2
100
AcDbLine
 10
5.821811
 20
9.846203
 30
0.0
 11
7.315772
 21
9.846203
 31
0.0
  0
LINE
  5
F1
330
1F
100
AcDbEntity
  8
2
100
AcDbLine
 10
3.120696
 20
8.916794
 30
0.0
 11
3.120696
 21
10.025992
 31
0.0
  0
LINE
  5
F2
330
1F
100
AcDbEntity
  8
2
100
AcDbLine
 10
3.120696
 20
4.192033
 30
0.0
 11
3.120696
 21
3.059
 31
0.0
  0
ARC
  5
F3
330
1F
100
AcDbEntity
  8
2
100
AcDbCircle
 10
3.120696
 20
4.292033
 30
0.0
 40
0.3096370000000002
100
AcDbArc
 50
180.000005009
 51
-89.9999993169999
  0
ARC
  5
F4
330
1F
100
AcDbEntity
  8
2
100
AcDbCircle
 10
3.210589999999999
 20
5.206645
 30
0.0
 40
0.3995310000000003
100
AcDbArc
 50
180.0000050090001
 51
224.999996016
  0
LINE
  5
F5
330
1F
100
AcDbEntity
  8
2
100
AcDbLine
 10
2.811059
 20
8.666899
 30
0.0
 11
2.811059
 21
4.292033
 31
0.0
  0
LINE
  5
F6
330
1F
100
AcDbEntity
  8
2
100
AcDbLine
 10
2.930918
 20
5.539713999999999
 30
0.0
 11
2.930918
 21
7.419218
 31
0.0
  0
ARC
  5
F7
330
1F
100
AcDbEntity
  8
2
100
AcDbCircle
 10
3.210589999999999
 20
7.752287
 30
0.0
 40
0.3995309999999984
100
AcDbArc
 50
135.0000003420002
 51
180.0000050090001
  0
ARC
  5
F8
330
1F
100
AcDbEntity
  8
2
100
AcDbCircle
 10
3.120696
 20
8.666899
 30
0.0
 40
0.3096370000000007
100
AcDbArc
 50
90.00000250449992
 51
180.0000050089999
  0
LINE
  5
F9
330
1F
100
AcDbEntity
  8
1
100
AcDbLine
 10
4.835709
 20
10.851213
 30
0.0
 11
4.666809999999999
 21
10.851213
 31
0.0
  0
ARC
  5
FB
330
1F
100
AcDbEntity
  8
CONTINUOUS
100
AcDbCircle
 10
2.570104889235706
 20
6.479467193430433
 30
0.0
 40
0.7896138892370826
100
AcDbArc
 50
139.8553659955552
 51
220.1448366982518
  0
MTEXT
  5
FC
330
1F
100
AcDbEntity
  8
2
100
AcDbMText
 10
4.792
 20
2.372157894736842
 30
0.0
 40
0.2387422360248447
 41
0.0
 71
     4
 72
     1
  1
{\fArial Unicode MS|b0|i0|c0|p0;5.10"}{\fArial Unicode MS|b0|i0|c0|p0;}
 73
     1
 44
1.0
  0
MTEXT
  5
FD
330
1F
100
AcDbEntity
  8
2
100
AcDbMText
 10
5.921844999999999
 20
3.314157894736842
 30
0.0
 40
0.2387422360248447
 41
0.0
 71
     4
 72
     1
  1
{\fArial Unicode MS|b0|i0|c0|p0;2.19"}{\fArial Unicode MS|b0|i0|c0|p0;}
 73
     1
 44
1.0
  0
MTEXT
  5
FE
330
1F
100
AcDbEntity
  8
0
100
AcDbMText
 10
14.144102
 20
2.423421605862068
 30
0.0
 40
0.1768461007591442
 41
0.0
 71
     4
 72
     1
  1
{\fArial Unicode MS|b0|i0|c0|p0;3.90"}{\fArial Unicode MS|b0|i0|c0|p0;}
 73
     1
 44
1.0
  0
MTEXT
  5
FF
330
1F
100
AcDbEntity
  8
0
100
AcDbMText
 10
15.4953065
 20
3.244458655862068
 30
0.0
 40
0.1768461007591442
 41
0.0
 71
     4
 72
     1
  1
{\fArial Unicode MS|b0|i0|c0|p0;1.15"}{\fArial Unicode MS|b0|i0|c0|p0;}
 73
     1
 44
1.0
  0
MTEXT
  5
100
330
1F
100
AcDbEntity
  8
2
100
AcDbMText
 10
3.734411999999999
 20
3.314157894736842
 30
0.0
 40
0.2387422360248447
 41
0.0
 71
     4
 72
     1
  1
{\fArial Unicode MS|b0|i0|c0|p0;2.19"}{\fArial Unicode MS|b0|i0|c0|p0;}
 73
     1
 44
1.0
  0
MTEXT
  5
101
330
1F
100
AcDbEntity
  8
2
100
AcDbMText
 10
4.972
 20
9.602157894736841
 30
0.0
 40
0.2387422360248447
 41
0.0
 71
     4
 72
     1
  1
{\fArial Unicode MS|b0|i0|c0|p0;11cm}{\fArial Unicode MS|b0|i0|c0|p0;}
 73
     1
 44
1.0
  0
MTEXT
  5
102
330
1F
100
AcDbEntity
  8
2
100
AcDbMText
 10
4.881999999999999
 20
10.06215789473684
 30
0.0
 40
0.2387422360248447
 41
0.0
 71
     4
 72
     1
  1
{\fArial Unicode MS|b0|i0|c0|p0;4.380"}{\fArial Unicode MS|b0|i0|c0|p0;}
 73
     1
 44
1.0
  0
MTEXT
  5
103
330
1F
100
AcDbEntity
  8
2
100
AcDbMText
 10
6.251999999999999
 20
10.05215789473684
 30
0.0
 40
0.2387422360248447
 41
0.0
 71
     4
 72
     1
  1
{\fArial Unicode MS|b0|i0|c0|p0;TYP}{\fArial Unicode MS|b0|i0|c0|p0;}
 73
     1
 44
1.0
  0
MTEXT
  5
104
330
1F
100
AcDbEntity
  8
2
100
AcDbMText
 10
4.831999999999999
 20
10.79215789473684
 30
0.0
 40
0.2387422360248447
 41
0.0
 71
     4
 72
     1
  1
{\fArial Unicode MS|b0|i0|c0|p0;0.281}{\fArial Unicode MS|b0|i0|c0|p0;}
 73
     1
 44
1.0
  0
MTEXT
  5
105
330
1F
100
AcDbEntity
  8
2
100
AcDbMText
 10
5.882
 20
10.81215789473684
 30
0.0
 40
0.2387422360248447
 41
0.0
 71
     4
 72
     1
  1
{\fArial Unicode MS|b0|i0|c0|p0;/0.71cm}{\fArial Unicode MS|b0|i0|c0|p0;}
 73
     1
 44
1.0
  0
ENDSEC
  0
SECTION
  2
OBJECTS
  0
DICTIONARY
  5
C
330
0
100
AcDbDictionary
281
     1
  3
ACAD_GROUP
350
D
  3
ACAD_LAYOUT
350
1A
  3
ACAD_MLINESTYLE
350
17
  3
ACAD_PLOTSETTINGS
350
19
  3
ACAD_PLOTSTYLENAME
350
E
  0
DICTIONARY
  5
D
102
{ACAD_REACTORS
330
C
102
}
330
C
100
AcDbDictionary
281
     1
  0
DICTIONARY
  5
1A
102
{ACAD_REACTORS
330
C
102
}
330
C
100
AcDbDictionary
281
     1
  3
Layout1
350
1E
  3
Layout2
350
26
  3
Model
350
22
  0
DICTIONARY
  5
17
102
{ACAD_REACTORS
330
C
102
}
330
C
100
AcDbDictionary
281
     1
  3
Standard
350
18
  0
DICTIONARY
  5
19
102
{ACAD_REACTORS
330
C
102
}
330
C
100
AcDbDictionary
281
     1
  0
ACDBDICTIONARYWDFLT
  5
E
102
{ACAD_REACTORS
330
C
102
}
330
C
100
AcDbDictionary
281
     1
  3
Normal
350
F
100
AcDbDictionaryWithDefault
340
F
  0
LAYOUT
  5
1E
102
{ACAD_REACTORS
330
1A
102
}
330
1A
100
AcDbPlotSettings
  1

  2

  4

  6

 40
0.0
 41
0.0
 42
0.0
 43
0.0
 44
0.0
 45
0.0
 46
0.0
 47
0.0
 48
0.0
 49
0.0
140
0.0
141
0.0
142
1.0
143
1.0
 70
   688
 72
     0
 73
     0
 74
     5
  7

 75
    16
147
1.0
148
0.0
149
0.0
100
AcDbLayout
  1
Layout1
 70
     1
 71
     1
 10
0.0
 20
0.0
 11
0.0
 21
0.0
 12
0.0
 22
0.0
 32
0.0
 14
0.0
 24
0.0
 34
0.0
 15
0.0
 25
0.0
 35
0.0
146
0.0
 13
0.0
 23
0.0
 33
0.0
 16
1.0
 26
0.0
 36
0.0
 17
0.0
 27
1.0
 37
0.0
 76
     0
330
1B
  0
LAYOUT
  5
26
102
{ACAD_REACTORS
330
1A
102
}
330
1A
100
AcDbPlotSettings
  1

  2

  4

  6

 40
0.0
 41
0.0
 42
0.0
 43
0.0
 44
0.0
 45
0.0
 46
0.0
 47
0.0
 48
0.0
 49
0.0
140
0.0
141
0.0
142
1.0
143
1.0
 70
   688
 72
     0
 73
     0
 74
     5
  7

 75
    16
147
1.0
148
0.0
149
0.0
100
AcDbLayout
  1
Layout2
 70
     1
 71
     2
 10
0.0
 20
0.0
 11
0.0
 21
0.0
 12
0.0
 22
0.0
 32
0.0
 14
0.0
 24
0.0
 34
0.0
 15
0.0
 25
0.0
 35
0.0
146
0.0
 13
0.0
 23
0.0
 33
0.0
 16
1.0
 26
0.0
 36
0.0
 17
0.0
 27
1.0
 37
0.0
 76
     0
330
23
  0
LAYOUT
  5
22
102
{ACAD_REACTORS
330
1A
102
}
330
1A
100
AcDbPlotSettings
  1

  2

  4

  6

 40
0.0
 41
0.0
 42
0.0
 43
0.0
 44
0.0
 45
0.0
 46
0.0
 47
0.0
 48
0.0
 49
0.0
140
0.0
141
0.0
142
1.0
143
1.0
 70
  1712
 72
     0
 73
     0
 74
     0
  7

 75
     0
147
1.0
148
0.0
149
0.0
100
AcDbLayout
  1
Model
 70
     1
 71
     0
 10
0.0
 20
0.0
 11
0.0
 21
0.0
 12
0.0
 22
0.0
 32
0.0
 14
0.0
 24
0.0
 34
0.0
 15
0.0
 25
0.0
 35
0.0
146
0.0
 13
0.0
 23
0.0
 33
0.0
 16
1.0
 26
0.0
 36
0.0
 17
0.0
 27
1.0
 37
0.0
 76
     0
330
1F
  0
MLINESTYLE
  5
18
102
{ACAD_REACTORS
330
17
102
}
330
17
100
AcDbMlineStyle
  2
Standard
 70
     0
  3

 62
   256
 51
90.0
 52
90.0
 71
     2
 49
0.5
 62
   256
  6
BYLAYER
 49
-0.5
 62
   256
  6
BYLAYER
  0
ACDBPLACEHOLDER
  5
F
102
{ACAD_REACTORS
330
E
102
}
330
E
  0
ENDSEC
  0
EOF
